  0
SECTION
  2
HEADER
  9
$ACADVER
  1
AC1015
  9
$ACADMAINTVER
 70
     6
  9
$DWGCODEPAGE
  3
ANSI_1252
  9
$INSBASE
 10
0.0
 20
0.0
 30
0.0
  9
$EXTMIN
 10
27.71201828639872
 20
22.47330852335492
 30
0.0
  9
$EXTMAX
 10
78.73741828639872
 20
77.73000752335491
 30
0.0
  9
$LIMMIN
 10
0.0
 20
0.0
  9
$LIMMAX
 10
420.0
 20
297.0
  9
$ORTHOMODE
 70
     0
  9
$REGENMODE
 70
     1
  9
$FILLMODE
 70
     1
  9
$QTEXTMODE
 70
     0
  9
$MIRRTEXT
 70
     1
  9
$LTSCALE
 40
1.0
  9
$ATTMODE
 70
     1
  9
$TEXTSIZE
 40
2.5
  9
$TRACEWID
 40
1.0
  9
$TEXTSTYLE
  7
Standard
  9
$CLAYER
  8
Shape
  9
$CELTYPE
  6
ByLayer
  9
$CECOLOR
 62
   256
  9
$CELTSCALE
 40
1.0
  9
$DISPSILH
 70
     0
  9
$DIMSCALE
 40
1.0
  9
$DIMASZ
 40
2.5
  9
$DIMEXO
 40
0.625
  9
$DIMDLI
 40
3.75
  9
$DIMRND
 40
0.0
  9
$DIMDLE
 40
0.0
  9
$DIMEXE
 40
1.25
  9
$DIMTP
 40
0.0
  9
$DIMTM
 40
0.0
  9
$DIMTXT
 40
2.5
  9
$DIMCEN
 40
2.5
  9
$DIMTSZ
 40
0.0
  9
$DIMTOL
 70
     0
  9
$DIMLIM
 70
     0
  9
$DIMTIH
 70
     0
  9
$DIMTOH
 70
     0
  9
$DIMSE1
 70
     0
  9
$DIMSE2
 70
     0
  9
$DIMTAD
 70
     1
  9
$DIMZIN
 70
     8
  9
$DIMBLK
  1

  9
$DIMASO
 70
     1
  9
$DIMSHO
 70
     1
  9
$DIMPOST
  1

  9
$DIMAPOST
  1

  9
$DIMALT
 70
     0
  9
$DIMALTD
 70
     3
  9
$DIMALTF
 40
0.03937007874016
  9
$DIMLFAC
 40
1.0
  9
$DIMTOFL
 70
     1
  9
$DIMTVP
 40
0.0
  9
$DIMTIX
 70
     0
  9
$DIMSOXD
 70
     0
  9
$DIMSAH
 70
     0
  9
$DIMBLK1
  1

  9
$DIMBLK2
  1

  9
$DIMSTYLE
  2
ISO-25
  9
$DIMCLRD
 70
     0
  9
$DIMCLRE
 70
     0
  9
$DIMCLRT
 70
     0
  9
$DIMTFAC
 40
1.0
  9
$DIMGAP
 40
0.625
  9
$DIMJUST
 70
     0
  9
$DIMSD1
 70
     0
  9
$DIMSD2
 70
     0
  9
$DIMTOLJ
 70
     0
  9
$DIMTZIN
 70
     8
  9
$DIMALTZ
 70
     0
  9
$DIMALTTZ
 70
     0
  9
$DIMUPT
 70
     0
  9
$DIMDEC
 70
     2
  9
$DIMTDEC
 70
     2
  9
$DIMALTU
 70
     2
  9
$DIMALTTD
 70
     3
  9
$DIMTXSTY
  7
Standard
  9
$DIMAUNIT
 70
     0
  9
$DIMADEC
 70
     0
  9
$DIMALTRND
 40
0.0
  9
$DIMAZIN
 70
     0
  9
$DIMDSEP
 70
    44
  9
$DIMATFIT
 70
     3
  9
$DIMFRAC
 70
     0
  9
$DIMLDRBLK
  1

  9
$DIMLUNIT
 70
     2
  9
$DIMLWD
 70
    -2
  9
$DIMLWE
 70
    -2
  9
$DIMTMOVE
 70
     0
  9
$LUNITS
 70
     2
  9
$LUPREC
 70
     4
  9
$SKETCHINC
 40
1.0
  9
$FILLETRAD
 40
10.0
  9
$AUNITS
 70
     0
  9
$AUPREC
 70
     0
  9
$MENU
  1
.
  9
$ELEVATION
 40
0.0
  9
$PELEVATION
 40
0.0
  9
$THICKNESS
 40
0.0
  9
$LIMCHECK
 70
     0
  9
$CHAMFERA
 40
10.0
  9
$CHAMFERB
 40
10.0
  9
$CHAMFERC
 40
20.0
  9
$CHAMFERD
 40
0.0
  9
$SKPOLY
 70
     0
  9
$TDCREATE
 40
2453766.657158368
  9
$TDUCREATE
 40
2453766.615491701
  9
$TDUPDATE
 40
2453766.663108472
  9
$TDUUPDATE
 40
2453766.621441805
  9
$TDINDWG
 40
0.0055091898
  9
$TDUSRTIMER
 40
0.0055090741
  9
$USRTIMER
 70
     1
  9
$ANGBASE
 50
0.0
  9
$ANGDIR
 70
     0
  9
$PDMODE
 70
     0
  9
$PDSIZE
 40
0.0
  9
$PLINEWID
 40
0.0
  9
$SPLFRAME
 70
     0
  9
$SPLINETYPE
 70
     6
  9
$SPLINESEGS
 70
     8
  9
$HANDSEED
  5
150
  9
$SURFTAB1
 70
     6
  9
$SURFTAB2
 70
     6
  9
$SURFTYPE
 70
     6
  9
$SURFU
 70
     6
  9
$SURFV
 70
     6
  9
$UCSBASE
  2

  9
$UCSNAME
  2

  9
$UCSORG
 10
0.0
 20
0.0
 30
0.0
  9
$UCSXDIR
 10
1.0
 20
0.0
 30
0.0
  9
$UCSYDIR
 10
0.0
 20
1.0
 30
0.0
  9
$UCSORTHOREF
  2

  9
$UCSORTHOVIEW
 70
     0
  9
$UCSORGTOP
 10
0.0
 20
0.0
 30
0.0
  9
$UCSORGBOTTOM
 10
0.0
 20
0.0
 30
0.0
  9
$UCSORGLEFT
 10
0.0
 20
0.0
 30
0.0
  9
$UCSORGRIGHT
 10
0.0
 20
0.0
 30
0.0
  9
$UCSORGFRONT
 10
0.0
 20
0.0
 30
0.0
  9
$UCSORGBACK
 10
0.0
 20
0.0
 30
0.0
  9
$PUCSBASE
  2

  9
$PUCSNAME
  2

  9
$PUCSORG
 10
0.0
 20
0.0
 30
0.0
  9
$PUCSXDIR
 10
1.0
 20
0.0
 30
0.0
  9
$PUCSYDIR
 10
0.0
 20
1.0
 30
0.0
  9
$PUCSORTHOREF
  2

  9
$PUCSORTHOVIEW
 70
     0
  9
$PUCSORGTOP
 10
0.0
 20
0.0
 30
0.0
  9
$PUCSORGBOTTOM
 10
0.0
 20
0.0
 30
0.0
  9
$PUCSORGLEFT
 10
0.0
 20
0.0
 30
0.0
  9
$PUCSORGRIGHT
 10
0.0
 20
0.0
 30
0.0
  9
$PUCSORGFRONT
 10
0.0
 20
0.0
 30
0.0
  9
$PUCSORGBACK
 10
0.0
 20
0.0
 30
0.0
  9
$USERI1
 70
     0
  9
$USERI2
 70
     0
  9
$USERI3
 70
     0
  9
$USERI4
 70
     0
  9
$USERI5
 70
     0
  9
$USERR1
 40
0.0
  9
$USERR2
 40
0.0
  9
$USERR3
 40
0.0
  9
$USERR4
 40
0.0
  9
$USERR5
 40
0.0
  9
$WORLDVIEW
 70
     1
  9
$SHADEDGE
 70
     3
  9
$SHADEDIF
 70
    70
  9
$TILEMODE
 70
     1
  9
$MAXACTVP
 70
    64
  9
$PINSBASE
 10
0.0
 20
0.0
 30
0.0
  9
$PLIMCHECK
 70
     0
  9
$PEXTMIN
 10
26.66999878883362
 20
20.31999878883362
 30
0.0
  9
$PEXTMAX
 10
240.0299890995025
 20
182.8799890995025
 30
0.0
  9
$PLIMMIN
 10
-6.350006103515625
 20
-6.349999904632568
  9
$PLIMMAX
 10
273.0499877929687
 20
209.5499939918517
  9
$UNITMODE
 70
     0
  9
$VISRETAIN
 70
     1
  9
$PLINEGEN
 70
     0
  9
$PSLTSCALE
 70
     1
  9
$TREEDEPTH
 70
  3020
  9
$CMLSTYLE
  2
Standard
  9
$CMLJUST
 70
     0
  9
$CMLSCALE
 40
20.0
  9
$PROXYGRAPHICS
 70
     1
  9
$MEASUREMENT
 70
     1
  9
$CELWEIGHT
370
    -1
  9
$ENDCAPS
280
     0
  9
$JOINSTYLE
280
     0
  9
$LWDISPLAY
290
     0
  9
$INSUNITS
 70
     4
  9
$HYPERLINKBASE
  1

  9
$STYLESHEET
  1

  9
$XEDIT
290
     1
  9
$CEPSNTYPE
380
     0
  9
$PSTYLEMODE
290
     1
  9
$FINGERPRINTGUID
  2
{1D66E741-1E8B-4320-B80A-0A62952D0002}
  9
$VERSIONGUID
  2
{131D8128-3CBA-46E2-B2AD-D96437EADA33}
  9
$EXTNAMES
290
     1
  9
$PSVPSCALE
 40
0.0
  9
$OLESTARTUP
290
     0
  0
ENDSEC
  0
SECTION
  2
CLASSES
  0
CLASS
  1
ACDBDICTIONARYWDFLT
  2
AcDbDictionaryWithDefault
  3
AutoCAD 2000
 90
        0
280
     0
281
     0
  0
CLASS
  1
ACDBPLACEHOLDER
  2
AcDbPlaceHolder
  3
AutoCAD 2000
 90
        0
280
     0
281
     0
  0
CLASS
  1
LAYOUT
  2
AcDbLayout
  3
AutoCAD 2000
 90
        0
280
     0
281
     0
  0
ENDSEC
  0
SECTION
  2
TABLES
  0
TABLE
  2
VPORT
  5
8
330
0
100
AcDbSymbolTable
 70
     3
  0
VPORT
  5
14F
330
8
100
AcDbSymbolTableRecord
100
AcDbViewportTableRecord
  2
*Active
 70
     0
 10
0.0
 20
0.0
 11
1.0
 21
1.0
 12
54.72610420089814
 22
48.02452082569992
 13
0.0
 23
0.0
 14
10.0
 24
10.0
 15
10.0
 25
10.0
 16
0.0
 26
0.0
 36
1.0
 17
0.0
 27
0.0
 37
0.0
 40
64.59157706598848
 41
1.285542168674698
 42
50.0
 43
0.0
 44
0.0
 50
0.0
 51
0.0
 71
     0
 72
   100
 73
     1
 74
     3
 75
     0
 76
     0
 77
     0
 78
     0
281
     0
 65
     1
110
0.0
120
0.0
130
0.0
111
1.0
121
0.0
131
0.0
112
0.0
122
1.0
132
0.0
 79
     0
146
0.0
  0
ENDTAB
  0
TABLE
  2
LTYPE
  5
5
330
0
100
AcDbSymbolTable
 70
     3
  0
LTYPE
  5
14
330
5
100
AcDbSymbolTableRecord
100
AcDbLinetypeTableRecord
  2
ByBlock
 70
     0
  3

 72
    65
 73
     0
 40
0.0
  0
LTYPE
  5
15
330
5
100
AcDbSymbolTableRecord
100
AcDbLinetypeTableRecord
  2
ByLayer
 70
     0
  3

 72
    65
 73
     0
 40
0.0
  0
LTYPE
  5
16
330
5
100
AcDbSymbolTableRecord
100
AcDbLinetypeTableRecord
  2
Continuous
 70
     0
  3
Solid line
 72
    65
 73
     0
 40
0.0
  0
LTYPE
  5
146
330
5
100
AcDbSymbolTableRecord
100
AcDbLinetypeTableRecord
  2
ACAD_ISO10W100
 70
     0
  3
ISO dash dot __ . __ . __ . __ . __ . __ . __ .
 72
    65
 73
     4
 40
18.0
 49
12.0
 74
     0
 49
-3.0
 74
     0
 49
0.0
 74
     0
 49
-3.0
 74
     0
  0
LTYPE
  5
147
330
5
100
AcDbSymbolTableRecord
100
AcDbLinetypeTableRecord
  2
DASHDOT
 70
     0
  3
Dash dot __ . __ . __ . __ . __ . __ . __ . __
 72
    65
 73
     4
 40
25.4
 49
12.7
 74
     0
 49
-6.349999999999999
 74
     0
 49
0.0
 74
     0
 49
-6.349999999999999
 74
     0
  0
ENDTAB
  0
TABLE
  2
LAYER
  5
2
330
0
100
AcDbSymbolTable
 70
     5
  0
LAYER
  5
10
330
2
100
AcDbSymbolTableRecord
100
AcDbLayerTableRecord
  2
0
 70
     1
 62
    -7
  6
Continuous
370
    -3
390
F
  0
LAYER
  5
2B
330
2
100
AcDbSymbolTableRecord
100
AcDbLayerTableRecord
  2
Axes
 70
     0
 62
     1
  6
DASHDOT
370
    -3
390
F
  0
LAYER
  5
2C
330
2
100
AcDbSymbolTableRecord
100
AcDbLayerTableRecord
  2
Connectors
 70
     0
 62
     2
  6
Continuous
370
    -3
390
F
  0
LAYER
  5
2D
330
2
100
AcDbSymbolTableRecord
100
AcDbLayerTableRecord
  2
Shape
 70
     0
 62
     6
  6
Continuous
370
    -3
390
F
  0
LAYER
  5
2E
330
2
100
AcDbSymbolTableRecord
100
AcDbLayerTableRecord
  2
Pins Position
 70
     0
 62
   156
  6
Continuous
370
    -3
390
F
  0
ENDTAB
  0
TABLE
  2
STYLE
  5
3
330
0
100
AcDbSymbolTable
 70
     2
  0
STYLE
  5
11
330
3
100
AcDbSymbolTableRecord
100
AcDbTextStyleTableRecord
  2
Standard
 70
     0
 40
0.0
 41
1.0
 50
0.0
 71
     0
 42
2.5
  3
txt
  4

  0
STYLE
  5
145
330
3
100
AcDbSymbolTableRecord
100
AcDbTextStyleTableRecord
  2

 70
     1
 40
0.0
 41
1.0
 50
0.0
 71
     0
 42
2.5
  3
ltypeshp.shx
  4

  0
ENDTAB
  0
TABLE
  2
VIEW
  5
6
330
0
100
AcDbSymbolTable
 70
     0
  0
ENDTAB
  0
TABLE
  2
UCS
  5
7
330
0
100
AcDbSymbolTable
 70
     0
  0
ENDTAB
  0
TABLE
  2
APPID
  5
9
330
0
100
AcDbSymbolTable
 70
     2
  0
APPID
  5
12
330
9
100
AcDbSymbolTableRecord
100
AcDbRegAppTableRecord
  2
ACAD
 70
     0
  0
APPID
  5
136
330
9
100
AcDbSymbolTableRecord
100
AcDbRegAppTableRecord
  2
DCO15
 70
     0
  0
ENDTAB
  0
TABLE
  2
DIMSTYLE
  5
A
330
0
100
AcDbSymbolTable
 70
     2
100
AcDbDimStyleTable
 71
     0
  0
DIMSTYLE
105
27
330
A
100
AcDbSymbolTableRecord
100
AcDbDimStyleTableRecord
  2
ISO-25
 70
     0
 41
2.5
 42
0.625
 43
3.75
 44
1.25
 73
     0
 74
     0
 77
     1
 78
     8
140
2.5
141
2.5
143
0.03937007874016
147
0.625
171
     3
172
     1
271
     2
272
     2
274
     3
278
    44
283
     0
284
     8
340
11
  0
DIMSTYLE
105
2F
330
A
100
AcDbSymbolTableRecord
100
AcDbDimStyleTableRecord
  2
STANDARD
 70
     0
340
11
  0
ENDTAB
  0
TABLE
  2
BLOCK_RECORD
  5
1
330
0
100
AcDbSymbolTable
 70
     1
  0
BLOCK_RECORD
  5
1F
330
1
100
AcDbSymbolTableRecord
100
AcDbBlockTableRecord
  2
*Model_Space
340
22
  0
BLOCK_RECORD
  5
1B
330
1
100
AcDbSymbolTableRecord
100
AcDbBlockTableRecord
  2
*Paper_Space
340
1E
  0
BLOCK_RECORD
  5
23
330
1
100
AcDbSymbolTableRecord
100
AcDbBlockTableRecord
  2
*Paper_Space0
340
26
  0
ENDTAB
  0
ENDSEC
  0
SECTION
  2
BLOCKS
  0
BLOCK
  5
20
330
1F
100
AcDbEntity
  8
0
100
AcDbBlockBegin
  2
*Model_Space
 70
     0
 10
0.0
 20
0.0
 30
0.0
  3
*Model_Space
  1

  0
ENDBLK
  5
21
330
1F
100
AcDbEntity
  8
0
100
AcDbBlockEnd
  0
BLOCK
  5
1C
330
1B
100
AcDbEntity
 67
     1
  8
0
100
AcDbBlockBegin
  2
*Paper_Space
 70
     0
 10
0.0
 20
0.0
 30
0.0
  3
*Paper_Space
  1

  0
ENDBLK
  5
1D
330
1B
100
AcDbEntity
 67
     1
  8
0
100
AcDbBlockEnd
  0
BLOCK
  5
24
330
23
100
AcDbEntity
  8
0
100
AcDbBlockBegin
  2
*Paper_Space0
 70
     0
 10
0.0
 20
0.0
 30
0.0
  3
*Paper_Space0
  1

  0
ENDBLK
  5
25
330
23
100
AcDbEntity
  8
0
100
AcDbBlockEnd
  0
ENDSEC
  0
SECTION
  2
ENTITIES
  0
LINE
  5
B4
330
1F
100
AcDbEntity
  8
Axes
  6
Continuous
100
AcDbLine
 10
35.62579146781525
 20
74.98730752335493
 30
0.0
 11
67.81405667188558
 21
74.98730752335493
 31
0.0
  0
LINE
  5
B5
330
1F
100
AcDbEntity
  8
Axes
  6
Continuous
100
AcDbLine
 10
35.62579146781525
 20
72.44730752335492
 30
0.0
 11
67.81405667188558
 21
72.44730752335492
 31
0.0
  0
LWPOLYLINE
  5
B6
330
1F
100
AcDbEntity
  8
Connectors
100
AcDbPolyline
 90
        2
 70
     0
 43
0.2
 10
36.77471828639872
 20
71.31730752335492
 10
36.77471828639872
 20
76.11730852335492
  0
LWPOLYLINE
  5
B7
330
1F
100
AcDbEntity
  8
Shape
100
AcDbPolyline
 90
        2
 70
     0
 43
0.0254
 10
27.72471828639872
 20
27.71730852335492
 10
78.72471828639873
 20
27.71730852335492
  0
LWPOLYLINE
  5
B8
330
1F
100
AcDbEntity
  8
Shape
100
AcDbPolyline
 90
        2
 70
     0
 43
0.0254
 10
27.72471828639872
 20
77.71730752335492
 10
78.72471828639873
 20
77.71730752335492
  0
LINE
  5
B9
330
1F
100
AcDbEntity
  8
Axes
  6
Continuous
100
AcDbLine
 10
30.45471878639872
 20
69.52612641217453
 30
0.0
 11
30.45471878639872
 21
46.88285329650267
 31
0.0
  0
LINE
  5
BA
330
1F
100
AcDbEntity
  8
Axes
  6
Continuous
100
AcDbLine
 10
32.99471878639872
 20
46.92804951722092
 30
0.0
 11
32.99471878639872
 21
69.61651871757782
 31
0.0
  0
LWPOLYLINE
  5
BB
330
1F
100
AcDbEntity
  8
Connectors
100
AcDbPolyline
 90
        2
 70
     0
 43
0.2
 10
29.31171828639872
 20
68.63730752335492
 10
29.32471828639872
 20
48.28730852335493
  0
LWPOLYLINE
  5
BC
330
1F
100
AcDbEntity
  8
Connectors
100
AcDbPolyline
 90
        2
 70
     0
 43
0.2
 10
34.12471828639871
 20
48.28730852335493
 10
34.13771828639872
 20
68.63730752335492
  0
LWPOLYLINE
  5
BD
330
1F
100
AcDbEntity
  8
Shape
100
AcDbPolyline
 90
        2
 70
     0
 43
0.0254
 10
27.72471828639872
 20
27.71730852335492
 10
27.72471828639872
 20
77.71730752335492
  0
CIRCLE
  5
BE
330
1F
100
AcDbEntity
  8
Shape
  6
Continuous
100
AcDbCircle
 10
31.72471828639872
 20
31.71730852335493
 30
0.0
 40
2.1
  0
LWPOLYLINE
  5
BF
330
1F
100
AcDbEntity
  8
Connectors
100
AcDbPolyline
 90
        2
 70
     0
 43
0.2
 10
29.32471828639872
 20
48.28730852335493
 10
34.12471828639871
 20
48.28730852335493
  0
LWPOLYLINE
  5
C0
330
1F
100
AcDbEntity
  8
Pins Position
100
AcDbPolyline
 90
        2
 70
     1
 43
0.4999990000000001
 10
30.20471928639872
 20
67.36730752335493
 42
1.0
 10
30.70471828639872
 20
67.36730752335493
 42
1.0
  0
LWPOLYLINE
  5
C1
330
1F
100
AcDbEntity
  8
Pins Position
100
AcDbPolyline
 90
        2
 70
     1
 43
0.4999990000000001
 10
32.74471928639872
 20
67.36730752335493
 42
1.0
 10
33.24471828639872
 20
67.36730752335493
 42
1.0
  0
TEXT
  5
C2
330
1F
100
AcDbEntity
  8
Connectors
100
AcDbText
 10
34.37951828639872
 20
66.73170852335492
 30
0.0
 40
0.889
  1
15
100
AcDbText
  0
TEXT
  5
C3
330
1F
100
AcDbEntity
  8
Connectors
100
AcDbText
 10
34.37951828639872
 20
56.85110852335492
 30
0.0
 40
1.016
  1
7
100
AcDbText
  0
LINE
  5
C4
330
1F
100
AcDbEntity
  8
Axes
  6
Continuous
100
AcDbLine
 10
28.3038700203058
 20
49.5873075233549
 30
0.0
 11
36.35093637561374
 21
49.5873075233549
 31
0.0
  0
LINE
  5
C5
330
1F
100
AcDbEntity
  8
Axes
  6
Continuous
100
AcDbLine
 10
28.3038700203058
 20
52.12730752335492
 30
0.0
 11
36.35093637561374
 21
52.12730752335492
 31
0.0
  0
LINE
  5
C6
330
1F
100
AcDbEntity
  8
Axes
  6
Continuous
100
AcDbLine
 10
28.3038700203058
 20
54.6673075233549
 30
0.0
 11
36.35093637561374
 21
54.6673075233549
 31
0.0
  0
LINE
  5
C7
330
1F
100
AcDbEntity
  8
Axes
  6
Continuous
100
AcDbLine
 10
28.3038700203058
 20
57.20730752335491
 30
0.0
 11
36.35093637561374
 21
57.20730752335491
 31
0.0
  0
LWPOLYLINE
  5
C8
330
1F
100
AcDbEntity
  8
Pins Position
100
AcDbPolyline
 90
        2
 70
     1
 43
0.4999990000000001
 10
30.20471928639872
 20
57.20730752335493
 42
1.0
 10
30.70471828639872
 20
57.20730752335493
 42
1.0
  0
LWPOLYLINE
  5
C9
330
1F
100
AcDbEntity
  8
Pins Position
100
AcDbPolyline
 90
        2
 70
     1
 43
0.4999990000000001
 10
30.20471928639872
 20
54.66730752335492
 42
1.0
 10
30.70471828639872
 20
54.66730752335492
 42
1.0
  0
LWPOLYLINE
  5
CA
330
1F
100
AcDbEntity
  8
Pins Position
100
AcDbPolyline
 90
        2
 70
     1
 43
0.4999990000000001
 10
30.20471928639872
 20
52.12730752335493
 42
1.0
 10
30.70471828639872
 20
52.12730752335493
 42
1.0
  0
LWPOLYLINE
  5
CB
330
1F
100
AcDbEntity
  8
Pins Position
100
AcDbPolyline
 90
        2
 70
     1
 43
0.4999990000000001
 10
30.20471928639872
 20
49.58730752335492
 42
1.0
 10
30.70471828639872
 20
49.58730752335492
 42
1.0
  0
TEXT
  5
CC
330
1F
100
AcDbEntity
  8
Connectors
100
AcDbText
 10
28.38511828639872
 20
49.10410852335492
 30
0.0
 40
1.016
  1
2
100
AcDbText
  0
TEXT
  5
CD
330
1F
100
AcDbEntity
  8
Connectors
100
AcDbText
 10
28.38511828639872
 20
51.49170852335493
 30
0.0
 40
1.016
  1
4
100
AcDbText
  0
TEXT
  5
CE
330
1F
100
AcDbEntity
  8
Connectors
100
AcDbText
 10
28.28351828639872
 20
54.18410852335492
 30
0.0
 40
1.016
  1
6
100
AcDbText
  0
TEXT
  5
CF
330
1F
100
AcDbEntity
  8
Connectors
100
AcDbText
 10
28.33431828639872
 20
56.64790852335492
 30
0.0
 40
1.016
  1
8
100
AcDbText
  0
LWPOLYLINE
  5
D0
330
1F
100
AcDbEntity
  8
Pins Position
100
AcDbPolyline
 90
        2
 70
     1
 43
0.4999990000000001
 10
32.74471928639872
 20
49.58730752335492
 42
1.0
 10
33.24471828639872
 20
49.58730752335492
 42
1.0
  0
LWPOLYLINE
  5
D1
330
1F
100
AcDbEntity
  8
Pins Position
100
AcDbPolyline
 90
        2
 70
     1
 43
0.4999990000000001
 10
32.74471928639872
 20
52.12730752335493
 42
1.0
 10
33.24471828639872
 20
52.12730752335493
 42
1.0
  0
TEXT
  5
D2
330
1F
100
AcDbEntity
  8
Connectors
100
AcDbText
 10
34.37627307739404
 20
49.15490852335492
 30
0.0
 40
1.016
  1
1
100
AcDbText
  0
TEXT
  5
D3
330
1F
100
AcDbEntity
  8
Connectors
100
AcDbText
 10
34.37789568189639
 20
51.69490852335492
 30
0.0
 40
1.016
  1
3
100
AcDbText
  0
LWPOLYLINE
  5
D4
330
1F
100
AcDbEntity
  8
Pins Position
100
AcDbPolyline
 90
        2
 70
     1
 43
0.4999990000000001
 10
32.74471928639872
 20
57.20730752335493
 42
1.0
 10
33.24471828639872
 20
57.20730752335493
 42
1.0
  0
LWPOLYLINE
  5
D5
330
1F
100
AcDbEntity
  8
Pins Position
100
AcDbPolyline
 90
        2
 70
     1
 43
0.4999990000000001
 10
32.74471928639872
 20
54.66730752335492
 42
1.0
 10
33.24471828639872
 20
54.66730752335492
 42
1.0
  0
TEXT
  5
D6
330
1F
100
AcDbEntity
  8
Connectors
100
AcDbText
 10
32.25811828639872
 20
55.27690752335492
 30
0.0
 40
0.889
  1
J1
 50
90.0
100
AcDbText
  0
TEXT
  5
D7
330
1F
100
AcDbEntity
  8
Connectors
100
AcDbText
 10
34.37951828639872
 20
54.23490852335492
 30
0.0
 40
1.016
  1
5
100
AcDbText
  0
LINE
  5
D8
330
1F
100
AcDbEntity
  8
Axes
  6
Continuous
100
AcDbLine
 10
28.3038700203058
 20
59.74730752335492
 30
0.0
 11
36.35093637561374
 21
59.74730752335492
 31
0.0
  0
LINE
  5
D9
330
1F
100
AcDbEntity
  8
Axes
  6
Continuous
100
AcDbLine
 10
28.3038700203058
 20
62.28730752335491
 30
0.0
 11
36.35093637561374
 21
62.28730752335491
 31
0.0
  0
LINE
  5
DA
330
1F
100
AcDbEntity
  8
Axes
  6
Continuous
100
AcDbLine
 10
28.3038700203058
 20
64.8273075233549
 30
0.0
 11
36.35093637561374
 21
64.8273075233549
 31
0.0
  0
LWPOLYLINE
  5
DB
330
1F
100
AcDbEntity
  8
Pins Position
100
AcDbPolyline
 90
        2
 70
     1
 43
0.4999990000000001
 10
30.20471928639872
 20
64.82730752335491
 42
1.0
 10
30.70471828639872
 20
64.82730752335491
 42
1.0
  0
LWPOLYLINE
  5
DC
330
1F
100
AcDbEntity
  8
Pins Position
100
AcDbPolyline
 90
        2
 70
     1
 43
0.4999990000000001
 10
30.20471928639872
 20
62.28730752335493
 42
1.0
 10
30.70471828639872
 20
62.28730752335493
 42
1.0
  0
LWPOLYLINE
  5
DD
330
1F
100
AcDbEntity
  8
Pins Position
100
AcDbPolyline
 90
        2
 70
     1
 43
0.4999990000000001
 10
30.20471928639872
 20
59.74730752335492
 42
1.0
 10
30.70471828639872
 20
59.74730752335492
 42
1.0
  0
TEXT
  5
DE
330
1F
100
AcDbEntity
  8
Connectors
100
AcDbText
 10
27.82631828639872
 20
61.85490852335492
 30
0.0
 40
0.889
  1
12
100
AcDbText
  0
TEXT
  5
DF
330
1F
100
AcDbEntity
  8
Connectors
100
AcDbText
 10
27.82631828639872
 20
59.23870852335493
 30
0.0
 40
0.889
  1
10
100
AcDbText
  0
TEXT
  5
E0
330
1F
100
AcDbEntity
  8
Connectors
100
AcDbText
 10
27.82631828639872
 20
64.31870852335492
 30
0.0
 40
0.889
  1
14
100
AcDbText
  0
LWPOLYLINE
  5
E1
330
1F
100
AcDbEntity
  8
Pins Position
100
AcDbPolyline
 90
        2
 70
     1
 43
0.4999990000000001
 10
32.74471928639872
 20
62.28730752335493
 42
1.0
 10
33.24471828639872
 20
62.28730752335493
 42
1.0
  0
TEXT
  5
E2
330
1F
100
AcDbEntity
  8
Connectors
100
AcDbText
 10
34.37951828639872
 20
61.88030852335493
 30
0.0
 40
0.889
  1
11
100
AcDbText
  0
LWPOLYLINE
  5
E3
330
1F
100
AcDbEntity
  8
Pins Position
100
AcDbPolyline
 90
        2
 70
     1
 43
0.4999990000000001
 10
32.74471928639872
 20
59.74730752335492
 42
1.0
 10
33.24471828639872
 20
59.74730752335492
 42
1.0
  0
TEXT
  5
E4
330
1F
100
AcDbEntity
  8
Connectors
100
AcDbText
 10
34.37951828639872
 20
59.39110852335493
 30
0.0
 40
1.016
  1
9
100
AcDbText
  0
LWPOLYLINE
  5
E5
330
1F
100
AcDbEntity
  8
Pins Position
100
AcDbPolyline
 90
        2
 70
     1
 43
0.4999990000000001
 10
32.74471928639872
 20
64.82730752335491
 42
1.0
 10
33.24471828639872
 20
64.82730752335491
 42
1.0
  0
TEXT
  5
E6
330
1F
100
AcDbEntity
  8
Connectors
100
AcDbText
 10
34.37951828639872
 20
64.36950852335492
 30
0.0
 40
0.889
  1
13
100
AcDbText
  0
LINE
  5
E7
330
1F
100
AcDbEntity
  8
Axes
  6
Continuous
100
AcDbLine
 10
28.3038700203058
 20
67.36730752335493
 30
0.0
 11
36.35093637561374
 21
67.36730752335493
 31
0.0
  0
CIRCLE
  5
E8
330
1F
100
AcDbEntity
  8
Shape
  6
Continuous
100
AcDbCircle
 10
31.72471828639872
 20
73.71730752335492
 30
0.0
 40
2.1
  0
LWPOLYLINE
  5
E9
330
1F
100
AcDbEntity
  8
Connectors
100
AcDbPolyline
 90
        2
 70
     0
 43
0.2
 10
29.32471828639872
 20
68.62730752335493
 10
34.12471828639871
 20
68.62730752335493
  0
TEXT
  5
EA
330
1F
100
AcDbEntity
  8
Connectors
100
AcDbText
 10
27.87711828639872
 20
66.96030852335493
 30
0.0
 40
0.889
  1
16
100
AcDbText
  0
LWPOLYLINE
  5
EB
330
1F
100
AcDbEntity
  8
Shape
100
AcDbPolyline
 90
        2
 70
     0
 43
0.0254
 10
78.72471828639873
 20
27.71730852335492
 10
78.72471828639873
 20
77.71730752335492
  0
LWPOLYLINE
  5
EC
330
1F
100
AcDbEntity
  8
Connectors
100
AcDbPolyline
 90
        2
 70
     0
 43
0.254
 10
37.17572828639872
 20
22.60030852335492
 10
37.17572828639872
 20
48.20030752335492
  0
LWPOLYLINE
  5
ED
330
1F
100
AcDbEntity
  8
Connectors
100
AcDbPolyline
 90
        2
 70
     0
 43
0.254
 10
53.96573028639872
 20
22.60030852335492
 10
53.96573028639872
 20
48.20030752335492
  0
LWPOLYLINE
  5
EE
330
1F
100
AcDbEntity
  8
Connectors
100
AcDbPolyline
 90
        2
 70
     0
 43
0.254
 10
37.17572828639872
 20
22.60030852335492
 10
53.96573028639872
 20
22.60030852335492
  0
LWPOLYLINE
  5
EF
330
1F
100
AcDbEntity
  8
Connectors
100
AcDbPolyline
 90
        2
 70
     0
 43
0.254
 10
39.34272928639872
 20
22.60030852335492
 10
39.34272928639872
 20
24.63430752335492
  0
LWPOLYLINE
  5
F0
330
1F
100
AcDbEntity
  8
Connectors
100
AcDbPolyline
 90
        2
 70
     0
 43
0.254
 10
37.17572828639872
 20
24.63430752335492
 10
39.34272928639872
 20
24.63430752335492
  0
LWPOLYLINE
  5
F1
330
1F
100
AcDbEntity
  8
Connectors
100
AcDbPolyline
 90
        2
 70
     0
 43
0.254
 10
51.78872928639872
 20
24.63430752335492
 10
53.96573028639872
 20
24.63430752335492
  0
LWPOLYLINE
  5
F2
330
1F
100
AcDbEntity
  8
Connectors
100
AcDbPolyline
 90
        2
 70
     0
 43
0.254
 10
51.78872928639872
 20
22.60030852335492
 10
51.78872928639872
 20
24.63430752335492
  0
LWPOLYLINE
  5
F3
330
1F
100
AcDbEntity
  8
Connectors
100
AcDbPolyline
 90
        2
 70
     0
 43
0.254
 10
37.17572828639872
 20
48.20030752335492
 10
53.96573028639872
 20
48.20030752335492
  0
CIRCLE
  5
F4
330
1F
100
AcDbEntity
  8
Shape
  6
Continuous
100
AcDbCircle
 10
74.72471878639872
 20
31.71730852335492
 30
0.0
 40
2.1
  0
LWPOLYLINE
  5
F5
330
1F
100
AcDbEntity
  8
Connectors
100
AcDbPolyline
 90
        2
 70
     0
 43
0.254
 10
63.28471828639873
 20
71.25359452335492
 10
65.82471828639872
 20
71.25359452335492
  0
LWPOLYLINE
  5
F6
330
1F
100
AcDbEntity
  8
Connectors
100
AcDbPolyline
 90
        2
 70
     0
 43
0.254
 10
63.28471828639873
 20
76.33359452335492
 10
65.82471828639872
 20
76.33359452335492
  0
LWPOLYLINE
  5
F7
330
1F
100
AcDbEntity
  8
Connectors
100
AcDbPolyline
 90
        2
 70
     0
 43
0.254
 10
63.28471828639873
 20
73.79359452335492
 10
65.82471828639872
 20
73.79359452335492
  0
TEXT
  5
F8
330
1F
100
AcDbEntity
  8
Connectors
100
AcDbText
 10
63.20851828639873
 20
69.83050852335492
 30
0.0
 40
1.016
  1
SOS
100
AcDbText
  0
LWPOLYLINE
  5
F9
330
1F
100
AcDbEntity
  8
Connectors
100
AcDbPolyline
 90
        2
 70
     0
 43
0.2
 10
36.77471828639872
 20
71.31730752335492
 10
62.19471828639872
 20
71.31730752335492
  0
LWPOLYLINE
  5
FA
330
1F
100
AcDbEntity
  8
Connectors
100
AcDbPolyline
 90
        2
 70
     0
 43
0.2
 10
36.77471828639872
 20
76.11730852335492
 10
62.19471828639872
 20
76.11730852335492
  0
TEXT
  5
FB
330
1F
100
AcDbEntity
  8
Connectors
100
AcDbText
 10
49.89891828639873
 20
76.48530852335493
 30
0.0
 40
1.016
  1
28
100
AcDbText
  0
TEXT
  5
FC
330
1F
100
AcDbEntity
  8
Connectors
100
AcDbText
 10
49.97511828639872
 20
69.88130852335493
 30
0.0
 40
1.016
  1
27
100
AcDbText
  0
LINE
  5
FD
330
1F
100
AcDbEntity
  8
Axes
  6
Continuous
100
AcDbLine
 10
48.23471878639873
 20
77.0797577597161
 30
0.0
 11
48.23471878639873
 21
69.48680396980711
 31
0.0
  0
LINE
  5
FE
330
1F
100
AcDbEntity
  8
Axes
  6
Continuous
100
AcDbLine
 10
45.69471878639872
 20
77.0797577597161
 30
0.0
 11
45.69471878639872
 21
69.48680396980711
 31
0.0
  0
LINE
  5
FF
330
1F
100
AcDbEntity
  8
Axes
  6
Continuous
100
AcDbLine
 10
43.15471878639871
 20
77.0797577597161
 30
0.0
 11
43.15471878639871
 21
69.48680396980711
 31
0.0
  0
LINE
  5
100
330
1F
100
AcDbEntity
  8
Axes
  6
Continuous
100
AcDbLine
 10
40.61471878639872
 20
77.0797577597161
 30
0.0
 11
40.61471878639872
 21
69.48680396980711
 31
0.0
  0
LINE
  5
101
330
1F
100
AcDbEntity
  8
Axes
  6
Continuous
100
AcDbLine
 10
38.07471878639872
 20
77.0797577597161
 30
0.0
 11
38.07471878639872
 21
69.48680396980711
 31
0.0
  0
LWPOLYLINE
  5
102
330
1F
100
AcDbEntity
  8
Pins Position
100
AcDbPolyline
 90
        2
 70
     1
 43
0.4999990000000001
 10
42.90471928639871
 20
72.44730752335492
 42
1.0
 10
43.40471828639872
 20
72.44730752335492
 42
1.0
  0
LWPOLYLINE
  5
103
330
1F
100
AcDbEntity
  8
Pins Position
100
AcDbPolyline
 90
        2
 70
     1
 43
0.4999990000000001
 10
42.90471928639871
 20
74.98730752335493
 42
1.0
 10
43.40471828639872
 20
74.98730752335493
 42
1.0
  0
TEXT
  5
104
330
1F
100
AcDbEntity
  8
Connectors
100
AcDbText
 10
42.50751828639872
 20
69.88130852335493
 30
0.0
 40
1.016
  1
21
100
AcDbText
  0
TEXT
  5
105
330
1F
100
AcDbEntity
  8
Connectors
100
AcDbText
 10
39.86591828639872
 20
69.88130852335493
 30
0.0
 40
1.016
  1
19
100
AcDbText
  0
TEXT
  5
106
330
1F
100
AcDbEntity
  8
Connectors
100
AcDbText
 10
37.30051828639872
 20
69.88130852335493
 30
0.0
 40
1.016
  1
17
100
AcDbText
  0
LWPOLYLINE
  5
107
330
1F
100
AcDbEntity
  8
Pins Position
100
AcDbPolyline
 90
        2
 70
     1
 43
0.4999990000000001
 10
37.82471928639871
 20
72.44730752335492
 42
1.0
 10
38.32471828639872
 20
72.44730752335492
 42
1.0
  0
LWPOLYLINE
  5
108
330
1F
100
AcDbEntity
  8
Pins Position
100
AcDbPolyline
 90
        2
 70
     1
 43
0.4999990000000001
 10
37.82471928639871
 20
74.98730752335493
 42
1.0
 10
38.32471828639872
 20
74.98730752335493
 42
1.0
  0
LWPOLYLINE
  5
109
330
1F
100
AcDbEntity
  8
Pins Position
100
AcDbPolyline
 90
        2
 70
     1
 43
0.4999990000000001
 10
40.36471928639872
 20
72.44730752335492
 42
1.0
 10
40.86471828639872
 20
72.44730752335492
 42
1.0
  0
LWPOLYLINE
  5
10A
330
1F
100
AcDbEntity
  8
Pins Position
100
AcDbPolyline
 90
        2
 70
     1
 43
0.4999990000000001
 10
40.36471928639872
 20
74.98730752335493
 42
1.0
 10
40.86471828639872
 20
74.98730752335493
 42
1.0
  0
TEXT
  5
10B
330
1F
100
AcDbEntity
  8
Connectors
100
AcDbText
 10
44.74271828639873
 20
69.88130852335493
 30
0.0
 40
1.016
  1
23
100
AcDbText
  0
TEXT
  5
10C
330
1F
100
AcDbEntity
  8
Connectors
100
AcDbText
 10
47.38431828639872
 20
69.88130852335493
 30
0.0
 40
1.016
  1
25
100
AcDbText
  0
TEXT
  5
10D
330
1F
100
AcDbEntity
  8
Connectors
100
AcDbText
 10
46.08891828639872
 20
73.36110852335493
 30
0.0
 40
0.889
  1
J3
100
AcDbText
  0
LWPOLYLINE
  5
10E
330
1F
100
AcDbEntity
  8
Pins Position
100
AcDbPolyline
 90
        2
 70
     1
 43
0.4999990000000001
 10
45.44471928639872
 20
72.44730752335492
 42
1.0
 10
45.94471828639872
 20
72.44730752335492
 42
1.0
  0
LWPOLYLINE
  5
10F
330
1F
100
AcDbEntity
  8
Pins Position
100
AcDbPolyline
 90
        2
 70
     1
 43
0.4999990000000001
 10
45.44471928639872
 20
74.98730752335493
 42
1.0
 10
45.94471828639872
 20
74.98730752335493
 42
1.0
  0
LWPOLYLINE
  5
110
330
1F
100
AcDbEntity
  8
Pins Position
100
AcDbPolyline
 90
        2
 70
     1
 43
0.4999990000000001
 10
47.98471928639873
 20
72.44730752335492
 42
1.0
 10
48.48471828639872
 20
72.44730752335492
 42
1.0
  0
LWPOLYLINE
  5
111
330
1F
100
AcDbEntity
  8
Pins Position
100
AcDbPolyline
 90
        2
 70
     1
 43
0.4999990000000001
 10
47.98471928639873
 20
74.98730752335493
 42
1.0
 10
48.48471828639872
 20
74.98730752335493
 42
1.0
  0
TEXT
  5
112
330
1F
100
AcDbEntity
  8
Connectors
100
AcDbText
 10
42.43131828639872
 20
76.48530852335493
 30
0.0
 40
1.016
  1
22
100
AcDbText
  0
TEXT
  5
113
330
1F
100
AcDbEntity
  8
Connectors
100
AcDbText
 10
39.84051828639872
 20
76.48530852335493
 30
0.0
 40
1.016
  1
20
100
AcDbText
  0
TEXT
  5
114
330
1F
100
AcDbEntity
  8
Connectors
100
AcDbText
 10
37.19891828639872
 20
76.48530852335493
 30
0.0
 40
1.016
  1
18
100
AcDbText
  0
TEXT
  5
115
330
1F
100
AcDbEntity
  8
Connectors
100
AcDbText
 10
45.09831828639872
 20
76.48530852335493
 30
0.0
 40
1.016
  1
24
100
AcDbText
  0
TEXT
  5
116
330
1F
100
AcDbEntity
  8
Connectors
100
AcDbText
 10
47.43511828639872
 20
76.48530852335493
 30
0.0
 40
1.016
  1
26
100
AcDbText
  0
LINE
  5
117
330
1F
100
AcDbEntity
  8
Axes
  6
Continuous
100
AcDbLine
 10
60.93471878639872
 20
77.0797577597161
 30
0.0
 11
60.93471878639872
 21
69.48680396980711
 31
0.0
  0
LINE
  5
118
330
1F
100
AcDbEntity
  8
Axes
  6
Continuous
100
AcDbLine
 10
58.39471878639873
 20
77.0797577597161
 30
0.0
 11
58.39471878639873
 21
69.48680396980711
 31
0.0
  0
LINE
  5
119
330
1F
100
AcDbEntity
  8
Axes
  6
Continuous
100
AcDbLine
 10
55.85471878639872
 20
77.0797577597161
 30
0.0
 11
55.85471878639872
 21
69.48680396980711
 31
0.0
  0
LINE
  5
11A
330
1F
100
AcDbEntity
  8
Axes
  6
Continuous
100
AcDbLine
 10
53.31471878639873
 20
77.0797577597161
 30
0.0
 11
53.31471878639873
 21
69.48680396980711
 31
0.0
  0
LINE
  5
11B
330
1F
100
AcDbEntity
  8
Axes
  6
Continuous
100
AcDbLine
 10
50.77471878639872
 20
77.0797577597161
 30
0.0
 11
50.77471878639872
 21
69.48680396980711
 31
0.0
  0
LWPOLYLINE
  5
11C
330
1F
100
AcDbEntity
  8
Connectors
100
AcDbPolyline
 90
        2
 70
     0
 43
0.2
 10
62.19471828639872
 20
71.31730752335492
 10
62.19471828639872
 20
76.11730852335492
  0
LWPOLYLINE
  5
11D
330
1F
100
AcDbEntity
  8
Connectors
100
AcDbPolyline
 90
        2
 70
     0
 43
0.254
 10
63.28471828639873
 20
71.25359452335492
 10
63.28471828639873
 20
76.33359452335492
  0
TEXT
  5
11E
330
1F
100
AcDbEntity
  8
Connectors
100
AcDbText
 10
52.46431828639872
 20
69.88130852335493
 30
0.0
 40
1.016
  1
29
100
AcDbText
  0
TEXT
  5
11F
330
1F
100
AcDbEntity
  8
Connectors
100
AcDbText
 10
55.15671828639873
 20
69.88130852335493
 30
0.0
 40
1.016
  1
31
100
AcDbText
  0
LWPOLYLINE
  5
120
330
1F
100
AcDbEntity
  8
Pins Position
100
AcDbPolyline
 90
        2
 70
     1
 43
0.4999990000000001
 10
53.06471928639872
 20
72.44730752335492
 42
1.0
 10
53.56471828639872
 20
72.44730752335492
 42
1.0
  0
LWPOLYLINE
  5
121
330
1F
100
AcDbEntity
  8
Pins Position
100
AcDbPolyline
 90
        2
 70
     1
 43
0.4999990000000001
 10
53.06471928639872
 20
74.98730752335493
 42
1.0
 10
53.56471828639872
 20
74.98730752335493
 42
1.0
  0
LWPOLYLINE
  5
122
330
1F
100
AcDbEntity
  8
Pins Position
100
AcDbPolyline
 90
        2
 70
     1
 43
0.4999990000000001
 10
50.52471928639872
 20
72.44730752335492
 42
1.0
 10
51.02471828639872
 20
72.44730752335492
 42
1.0
  0
LWPOLYLINE
  5
123
330
1F
100
AcDbEntity
  8
Pins Position
100
AcDbPolyline
 90
        2
 70
     1
 43
0.4999990000000001
 10
50.52471928639872
 20
74.98730752335493
 42
1.0
 10
51.02471828639872
 20
74.98730752335493
 42
1.0
  0
LWPOLYLINE
  5
124
330
1F
100
AcDbEntity
  8
Pins Position
100
AcDbPolyline
 90
        2
 70
     1
 43
0.4999990000000001
 10
55.60471928639872
 20
72.44730752335492
 42
1.0
 10
56.10471828639872
 20
72.44730752335492
 42
1.0
  0
LWPOLYLINE
  5
125
330
1F
100
AcDbEntity
  8
Pins Position
100
AcDbPolyline
 90
        2
 70
     1
 43
0.4999990000000001
 10
55.60471928639872
 20
74.98730752335493
 42
1.0
 10
56.10471828639872
 20
74.98730752335493
 42
1.0
  0
TEXT
  5
126
330
1F
100
AcDbEntity
  8
Connectors
100
AcDbText
 10
57.51891828639871
 20
69.88130852335493
 30
0.0
 40
1.016
  1
33
100
AcDbText
  0
TEXT
  5
127
330
1F
100
AcDbEntity
  8
Connectors
100
AcDbText
 10
60.16051828639873
 20
69.88130852335493
 30
0.0
 40
1.016
  1
35
100
AcDbText
  0
LWPOLYLINE
  5
128
330
1F
100
AcDbEntity
  8
Pins Position
100
AcDbPolyline
 90
        2
 70
     1
 43
0.4999990000000001
 10
58.14471928639872
 20
72.44730752335492
 42
1.0
 10
58.64471828639873
 20
72.44730752335492
 42
1.0
  0
LWPOLYLINE
  5
129
330
1F
100
AcDbEntity
  8
Pins Position
100
AcDbPolyline
 90
        2
 70
     1
 43
0.4999990000000001
 10
58.14471928639872
 20
74.98730752335493
 42
1.0
 10
58.64471828639873
 20
74.98730752335493
 42
1.0
  0
LWPOLYLINE
  5
12A
330
1F
100
AcDbEntity
  8
Pins Position
100
AcDbPolyline
 90
        2
 70
     1
 43
0.4999990000000001
 10
60.68471928639873
 20
72.44730752335492
 42
1.0
 10
61.18471828639872
 20
72.44730752335492
 42
1.0
  0
LWPOLYLINE
  5
12B
330
1F
100
AcDbEntity
  8
Pins Position
100
AcDbPolyline
 90
        2
 70
     1
 43
0.4999990000000001
 10
60.68471928639873
 20
74.98730752335493
 42
1.0
 10
61.18471828639872
 20
74.98730752335493
 42
1.0
  0
TEXT
  5
12C
330
1F
100
AcDbEntity
  8
Connectors
100
AcDbText
 10
52.48971828639873
 20
76.48530852335493
 30
0.0
 40
1.016
  1
30
100
AcDbText
  0
TEXT
  5
12D
330
1F
100
AcDbEntity
  8
Connectors
100
AcDbText
 10
54.95351828639872
 20
76.48530852335493
 30
0.0
 40
1.016
  1
32
100
AcDbText
  0
TEXT
  5
12E
330
1F
100
AcDbEntity
  8
Connectors
100
AcDbText
 10
60.08431828639873
 20
76.48530852335493
 30
0.0
 40
1.016
  1
36
100
AcDbText
  0
TEXT
  5
12F
330
1F
100
AcDbEntity
  8
Connectors
100
AcDbText
 10
57.67131828639872
 20
76.48530852335493
 30
0.0
 40
1.016
  1
34
100
AcDbText
  0
CIRCLE
  5
130
330
1F
100
AcDbEntity
  8
Shape
  6
Continuous
100
AcDbCircle
 10
74.72471878639872
 20
73.71730752335492
 30
0.0
 40
2.1
  0
LWPOLYLINE
  5
131
330
1F
100
AcDbEntity
  8
Connectors
100
AcDbPolyline
 90
        2
 70
     0
 43
0.254
 10
65.82471828639872
 20
71.25359452335492
 10
65.82471828639872
 20
76.33359452335492
  0
LWPOLYLINE
  5
132
330
1F
100
AcDbEntity
  8
Pins Position
100
AcDbPolyline
 90
        2
 70
     1
 43
0.4999990000000001
 10
64.30471928639872
 20
72.52359452335493
 42
1.0
 10
64.80471828639872
 20
72.52359452335493
 42
1.0
  0
LWPOLYLINE
  5
133
330
1F
100
AcDbEntity
  8
Pins Position
100
AcDbPolyline
 90
        2
 70
     1
 43
0.4999990000000001
 10
64.30471928639872
 20
74.98731852335493
 42
1.0
 10
64.80471828639872
 20
74.98731852335493
 42
1.0
  0
VIEWPORT
  5
140
330
1B
100
AcDbEntity
 67
     1
  8
0
100
AcDbViewport
 10
133.3499908447265
 20
101.5999970436096
 30
0.0
 40
364.6498872816706
 41
228.4221935424804
 68
     1
 69
     1
 12
133.3499908447265
 22
101.5999970436096
 13
0.0
 23
0.0
 14
10.0
 24
10.0
 15
10.0
 25
10.0
 16
0.0
 26
0.0
 36
1.0
 17
0.0
 27
0.0
 37
0.0
 42
50.0
 43
0.0
 44
0.0
 45
228.4221935424804
 50
0.0
 51
0.0
 72
   100
 90
    32800
  1

281
     0
 71
     1
 74
     0
110
0.0
120
0.0
130
0.0
111
1.0
121
0.0
131
0.0
112
0.0
122
1.0
132
0.0
 79
     0
146
0.0
  0
VIEWPORT
  5
142
330
1B
100
AcDbEntity
 67
     1
  8
0
100
AcDbViewport
 10
133.349993944168
 20
101.599993944168
 30
0.0
 40
213.3599903106689
 41
162.5599903106689
 68
     2
 69
     2
 12
53.22471828639873
 22
50.10165802335492
 13
0.0
 23
0.0
 14
10.0
 24
10.0
 15
10.0
 25
10.0
 16
0.0
 26
0.0
 36
1.0
 17
0.0
 27
0.0
 37
0.0
 42
50.0
 43
0.0
 44
0.0
 45
55.81958557724956
 50
0.0
 51
0.0
 72
   100
 90
    32864
  1

281
     0
 71
     1
 74
     0
110
0.0
120
0.0
130
0.0
111
1.0
121
0.0
131
0.0
112
0.0
122
1.0
132
0.0
 79
     0
146
0.0
  0
ENDSEC
  0
SECTION
  2
OBJECTS
  0
DICTIONARY
  5
C
330
0
100
AcDbDictionary
281
     1
  3
ACAD_GROUP
350
D
  3
ACAD_LAYOUT
350
1A
  3
ACAD_MLINESTYLE
350
17
  3
ACAD_PLOTSETTINGS
350
19
  3
ACAD_PLOTSTYLENAME
350
E
  3
ASE_INDEX_DICTIONARY
350
135
  0
DICTIONARY
  5
D
102
{ACAD_REACTORS
330
C
102
}
330
C
100
AcDbDictionary
281
     1
  0
DICTIONARY
  5
1A
102
{ACAD_REACTORS
330
C
102
}
330
C
100
AcDbDictionary
281
     1
  3
Layout1
350
1E
  3
Layout2
350
26
  3
Model
350
22
  0
DICTIONARY
  5
17
102
{ACAD_REACTORS
330
C
102
}
330
C
100
AcDbDictionary
281
     1
  3
Standard
350
18
  0
DICTIONARY
  5
19
102
{ACAD_REACTORS
330
C
102
}
330
C
100
AcDbDictionary
281
     1
  0
ACDBDICTIONARYWDFLT
  5
E
102
{ACAD_REACTORS
330
C
102
}
330
C
100
AcDbDictionary
281
     1
  3
Normal
350
F
100
AcDbDictionaryWithDefault
340
F
  0
DICTIONARY
  5
135
102
{ACAD_REACTORS
330
C
102
}
330
C
100
AcDbDictionary
281
     1
  3
ASEBlockHierarchyIndexRecord
350
137
1001
DCO15
1040
1552042188.572
  0
LAYOUT
  5
1E
102
{ACAD_REACTORS
330
1A
102
}
330
1A
100
AcDbPlotSettings
  1

  2
none_device
  4
Letter_(8.50_x_11.00_Inches)
  6

 40
6.349999904632568
 41
6.349999904632568
 42
6.350006103515625
 43
6.350006103515625
 44
215.8999938964843
 45
279.3999938964843
 46
0.0
 47
0.0
 48
0.0
 49
0.0
140
0.0
141
0.0
142
1.0
143
1.0
 70
   688
 72
     1
 73
     1
 74
     5
  7

 75
    16
147
1.0
148
0.0
149
0.0
100
AcDbLayout
  1
Layout1
 70
     1
 71
     1
 10
-6.350006103515625
 20
-6.349999904632568
 11
273.0499877929687
 21
209.5499939918517
 12
0.0
 22
0.0
 32
0.0
 14
26.66999878883362
 24
20.31999878883362
 34
0.0
 15
240.0299890995025
 25
182.8799890995025
 35
0.0
146
0.0
 13
0.0
 23
0.0
 33
0.0
 16
1.0
 26
0.0
 36
0.0
 17
0.0
 27
1.0
 37
0.0
 76
     0
330
1B
331
140
  0
LAYOUT
  5
26
102
{ACAD_REACTORS
330
1A
102
}
330
1A
100
AcDbPlotSettings
  1

  2
\\192.168.16.24\Kyocera FS-680 KX
  4

  6

 40
0.0
 41
0.0
 42
0.0
 43
0.0
 44
0.0
 45
0.0
 46
0.0
 47
0.0
 48
0.0
 49
0.0
140
0.0
141
0.0
142
1.0
143
1.0
 70
   688
 72
     0
 73
     0
 74
     5
  7

 75
    16
147
1.0
148
0.0
149
0.0
100
AcDbLayout
  1
Layout2
 70
     1
 71
     2
 10
0.0
 20
0.0
 11
12.0
 21
9.0
 12
0.0
 22
0.0
 32
0.0
 14
0.0
 24
0.0
 34
0.0
 15
0.0
 25
0.0
 35
0.0
146
0.0
 13
0.0
 23
0.0
 33
0.0
 16
1.0
 26
0.0
 36
0.0
 17
0.0
 27
1.0
 37
0.0
 76
     0
330
23
  0
LAYOUT
  5
22
102
{ACAD_REACTORS
330
1A
102
}
330
1A
100
AcDbPlotSettings
  1

  2
\\192.168.16.24\Kyocera FS-680 KX
  4

  6

 40
0.0
 41
0.0
 42
0.0
 43
0.0
 44
0.0
 45
0.0
 46
0.0
 47
0.0
 48
0.0
 49
0.0
140
0.0
141
0.0
142
1.0
143
1.0
 70
  1712
 72
     0
 73
     0
 74
     0
  7

 75
     0
147
1.0
148
0.0
149
0.0
100
AcDbLayout
  1
Model
 70
     1
 71
     0
 10
0.0
 20
0.0
 11
12.0
 21
9.0
 12
0.0
 22
0.0
 32
0.0
 14
0.0
 24
0.0
 34
0.0
 15
0.0
 25
0.0
 35
0.0
146
0.0
 13
0.0
 23
0.0
 33
0.0
 16
1.0
 26
0.0
 36
0.0
 17
0.0
 27
1.0
 37
0.0
 76
     0
330
1F
  0
MLINESTYLE
  5
18
102
{ACAD_REACTORS
330
17
102
}
330
17
100
AcDbMlineStyle
  2
STANDARD
 70
     0
  3

 62
   256
 51
90.0
 52
90.0
 71
     2
 49
0.5
 62
   256
  6
BYLAYER
 49
-0.5
 62
   256
  6
BYLAYER
  0
ACDBPLACEHOLDER
  5
F
102
{ACAD_REACTORS
330
E
102
}
330
E
  0
XRECORD
  5
137
102
{ACAD_REACTORS
330
135
102
}
330
135
100
AcDbXrecord
280
     1
  0
ENDSEC
  0
EOF